We have detected that cookies are not enabled on your browser. Please enable cookies to ensure the proper experience.
Results 1 to 23 of 23
  1. #1
    Join Date
    Jun 2008
    Posts
    813

    Tabs for lotro soundtrack?

    Does anyone the guitar tabs for autumn ale, beeland jig, and lay of the free people. Or if anyone here is really good, could you figure it out by ear.
    And I mean guitar tabs as in a real guitar not an in-game one.
    [charsig=http://lotrosigs.level3.turbine.com/0920d0000001f3407/01005/signature.png]Laserbear[/charsig]

    Always hunting wabbits (and wargs).

  2. #2

    Re: Tabs for lotro soundtrack?

    Melody Assistant can convert a midi into tabs or translate tabs into ABC also.

    If you can get the Midis of these, I am sure I or one of the other folks with Melody Assistant here could help you translate them into tab.

    I wish I was skilled enough to write music on the fly like that hehe.
    [url]http://joel-end.blogspot.com/[/url]
    [charsig=http://lotrosigs.level3.turbine.com/0520a000000001d6c/01005/signature.png]Hoppa[/charsig]

  3. #3
    Join Date
    Jul 2007
    Location
    South Dakota
    Posts
    2,884

    Re: Tabs for lotro soundtrack?

    I've got the basic melody from Autumn Ale... I just sat down with my DADGAD tuned acoustic and tried to pick out the notes, however, so it may be wrong!

    The rest of it is mainly chords, this is the meat of the song. Since the only two strings I used were the D and G strings, it should be equally playable in standard tuning -- however, my chords are based on DADGAD.

    (also note that I've never written out a tab before, so hopefully this is readable.)

    Code:
    6/8 time, where 2 dashes ("-") equals one eighth note
    
    D=:|  ------------------------|------------------------|------------------------|------------------------|
    A=:|  ------------------------|------------------------|------------------------|------------------------|
    G=:|o 2-0-2-4-2-0-----------0-|2-0-2-4-2-0-------------|2-0-2-4-2-0-----------0-|2-0-2-4-2-0-------------|
    D=:|o ------------4-2-0-2-4---|------------4-2-0-2-0---|------------4-2-0-2-4---|------------4-2-0-2-0---|
    A=:|  ------------------------|------------------------|------------------------|------------------------|
    D=:|  ------------------------|------------------------|------------------------|------------------------|
    
    D=:------------------------|------------------------|------------------------|------------------------  |
    A=:------------------------|------------------------|------------------------|------------------------  |
    G=:7-5-7-5---5-4-0-2-4-5-4-|7-5-7-5---5-4-2-0-------|2-0-2-4-2-0-----------0-|2-0-2-4-2-0------------- o|
    D=:------------------------|------------------4-2-0-|------------4-2-0-2-4---|------------4-2-0-2-0--- o|
    A=:------------------------|------------------------|------------------------|------------------------  |
    D=:------------------------|------------------------|------------------------|------------------------  |
    When I play the following background chords, it's not entirely correct, however it does sound good:
    In DADGAD tuning, hold the 2nd fret on the G-string and strum the top 4 strings in your preferred rhythm. when you hit the 5th and 6th measures in the tab above, switch to the 5th fret on the G-string, and then back to the 2nd fret once the 7th measure comes around.
    You'll probably have to play with it -- I'm no music teacher, and I hope you just get enough out of this to start working on it. There are quite a few flourishes on the notes that I'm not good enough to play....
    [B][COLOR=red]Turn[/COLOR] - Guardian
    [COLOR=red]Balandolen[/COLOR] - Lore-master
    [COLOR=red]Turnholm[/COLOR] - Minstrel

    [/B]

  4. Re: Tabs for lotro soundtrack?

    Hello! Here is my attempt at tabbing Autumn Ale. I am also working on Breeland Jig and Lay of the Free Peoples.

    Code:
    Autumn Ale
    
    Tabs for lead and accompaniment guitar.
    
    Play patterns in this order: 1, 1, 1, 1, 2, 1, 1, 2
    
    
    pattern 1 (lead)
    
    E----------------------------------------------------------------
    B----------------------------------------------------------------
    G--2-----2--4--2h4-----------------------------------------------
    D-----5-------------5--4--2-----2--4--5--------------------------
    A----------------------------5-----------------------------------
    E----------------------------------------------------------------
    
    E----------------------------------------------------------------
    B----------------------------------------------------------------
    G--2-----2--4--2h4-----------------------------------------------
    D-----5-------------5--4--2-----2--------------------------------
    A----------------------------5-----5-----------------------------
    E----------------------------------------------------------------
    
    
    pattern 1 (accompany)
    
    E----------------------------------------------------------------
    B----------------------------------------------------------------
    G--2-----2--2h4--2-----------------------------------------------
    D-------------------5--4--2-----2--4--5--------------------------
    A----------------------------5-----------------------------------
    E----------------------------------------------------------------
    
    E----------------------------------------------------------------
    B----------------------------------------------------------------
    G--2-----2--2h4--2-----------------------------------------------
    D-----5-------------5--4--2-----2--------------------------------
    A----------------------------5-----5-----------------------------
    E----------------------------------------------------------------
    
    
    pattern 2 (lead)
    
    E----------------------------------------------------------------
    B--3--3---------------------------3--3---------------------------
    G--------5--5--4-----2--4--5--4---------5--5--4--2---------------
    D-----------------5---------------------------------5--4--2------
    A------------------------------------------------------------5---
    E----------------------------------------------------------------
    
    
    pattern 2 (accompany)
    
    E----------------------------------------------------------------
    B----------------------------------------------------------------
    G--2--2h4--4--4--4h5--5-5---------2--2h4--4--4--4h5--5-5---------
    D----------------------------------------------------------------
    A----------------------------------------------------------------
    E----------------------------------------------------------------
    
    Alternately, accompany can strum this chord for pattern 2:
    
    EADGBE
    x05533
    [url="http://astleigh.mymiddleearth.com/"]Astleigh's Songbook[/url] | [url="http://www.lotrointerface.com/downloads/info455-Lyrical.html"]Lyrical[/url]

  5. Re: Tabs for lotro soundtrack?

    Breeland Jig. I don't think this is how the guitar part was actually played, but this is the closest I could get.

    Code:
    Breeland Jig
    
    Use alternate picking with a heavy accent every 4th beat (starred).
    
    
    part 1
    
       *             *           *           *
     --d--u----d--u--d--u--d--u--d--u--d--u--d--u--d------------
    E----------------------------------------------------------------
    B--3-------------------------------------------------------------
    G-----5p4p2---5--4--2-----4--2-----------------------------------
    D----------------------5--------5--3--3--3--5--5-----------------
    A----------------------------------------------------------------
    E----------------------------------------------------------------
    
    E----------------------------------------------------------------
    B----------------------------------------------------------------
    G----------------------------------------------------------------
    D--3--5p3--2--3--3--2--------------------------------------------
    A----------------------5--3--3--5--5--5--3--5--5-----------------
    E----------------------------------------------------------------
    
    E----------------------------------------------------------------
    B--3-------------------------------------------------------------
    G-----5p4p2---5--4--2-----4--2-----------------------------------
    D----------------------5--------5--3--3--3--5--5-----------------
    A----------------------------------------------------------------
    E----------------------------------------------------------------
    
    E----------------------------------------------------------------
    B----------------------------------------------------------------
    G----------------------------------------------------------------
    D--3--5p3--2--3--3--2--------------------------------------------
    A----------------------5--3--3--5--5--5--5-----------------------
    E----------------------------------------------------------------
    
    [repeat part 1]
    
    
    part 2
    
       *             *             *             *
    E----------------------------------------------------------------
    B----------------------------------------------------------------
    G--------------------------------------------2-------------------
    D--3--5p3--2--3--3--5p3--2--3--3--5p3--2--3-----5--3--2----------
    A----------------------------------------------------------------
    E----------------------------------------------------------------
    
    E----------------------------------------------------------------
    B----------------------------------------------------------------
    G----------------------------------------------------------------
    D--3--5p3--2--3--3--5p3--2--3--3--2------------------------------
    A------------------------------------5--3----3--5--5-------------
    E----------------------------------------------------------------
    
    E----------------------------------------------------------------
    B----------------------------------------------------------------
    G--------------------------------------------2-----4-------------
    D--3--5p3--2--3--3--5p3--2--3--3--5p3----------5-----------------
    A----------------------------------------------------------------
    E----------------------------------------------------------------
    
    E----------------------------------------------------------------
    B----------------------------------------------------------------
    G--5--4--2-------4--2--------------------------------------------
    D-----------5----------5--3----3--5--5--4----5-------------------
    A----------------------------------------------------------------
    E----------------------------------------------------------------
    
    
    part 3
    
       *             *             *             *
    E----------------------------------------------------------------
    B----------------------------------------------------------------
    G--4--5p4--2--4--4--5p4--2--4--4--5p4--2-----4-------------------
    D-----------------------------------------5----------------------
    A----------------------------------------------------------------
    E----------------------------------------------------------------
    
    E----------------------------------------------------------------
    B------------------------------3---------------------------------
    G--4--5p4--2--4--4--5p4--2--4-----5--4--2------------------------
    D--------------------------------------------5-------------------
    A----------------------------------------------------------------
    E----------------------------------------------------------------
    
    E----------------------------------------------------------------
    B--------------------------------------------3-------------------
    G--4--5p4--2--4--4--5p4--2--4--4--5p4--2--4----------------------
    D----------------------------------------------------------------
    A----------------------------------------------------------------
    E----------------------------------------------------------------
    
    E-------3--1--0--------------------------------------------------
    B----------------3--------3----3---------------------------------
    G-------------------5--4----------5--4--2------------------------
    D--------------------------------------------5-------------------
    A----------------------------------------------------------------
    E----------------------------------------------------------------
    [url="http://astleigh.mymiddleearth.com/"]Astleigh's Songbook[/url] | [url="http://www.lotrointerface.com/downloads/info455-Lyrical.html"]Lyrical[/url]

  6. #6
    Join Date
    Jun 2008
    Posts
    813

    Re: Tabs for lotro soundtrack?

    thanks for the tabs

    +rep for both of you
    [charsig=http://lotrosigs.level3.turbine.com/0920d0000001f3407/01005/signature.png]Laserbear[/charsig]

    Always hunting wabbits (and wargs).

  7. Re: Tabs for lotro soundtrack?

    Here's the last one, Lay of the Free Peoples.

    Code:
    Lay of the Free Peoples
    
    Tab for lead and accompaniment guitar. The song is entirely in C 
    pentatonic minor, with the exception of a few notes in the accompaniment.
    
    The lead guitar loops over 6 variations of a main theme.
    
    The accompaniment guitar plays one of 3 patterns on top of this, starting
    with pattern 2, then pattern 3, then copying the lead's pattern 1, then
    back to pattern 2.
    
    Lead guitar:
    
    1a, 1c,
    1a, 1d,
    1b, 1c,
    1a, 1d,
    1a, 1c,
    1a, 1e
    etc.
    
    
    pattern 1a (beginning)
    
    E----------------------------------------
    B----------------------------------------
    G--3--5--5--3h5p3--------3---------------
    D------------------5--3-----5--3---------
    A---------------------------------6--3---
    E----------------------------------------
    
    pattern 1b (alternate beginning)
    
    E----------------------------------------
    B----------------------------------------
    G--5--5-----3------------3---------------
    D------------------5--3-----5--3---------
    A---------------------------------6--3---
    E----------------------------------------
    
                            pattern 1c (ending)
                            
                            E----------------------------------------
                            B----------------------------------------
                            G-----------3----------------------------
                            D--------3-----3--5--5-------------------
                            A--3--6-----------3--3-------------------
                            E----------------------------------------
                            
                            pattern 1d (alternate ending)
                            
                            E----------------------------------------
                            B----------------------------------------
                            G-----------3-----------3--5-------------
                            D--------3-----3--------------3--5-------
                            A--3--6-----------6--3--------------6----
                            E----------------------------------------
                            
                            pattern 1e (alternate ending)
                            
                            E----------------------------------------
                            B----------------------------------------
                            G-----------3----------------------------
                            D--------3-----3-------------------------
                            A--3--6-----------6--3-3--3--3-----------
                            E----------------------------------------
    
    
    
    Accompany guitar:
    
    pattern 2a: (beginning)                2b: (ending)
    
    E-----3--3-------------------------------------------------------
    B--6--------6--------6-----------------3h4p3h4p3-----------------
    G--------------5--3-----5--3--3----------------------3--5--------
    D--------------------------------5--5-------------5--------------
    A----------------------------------------------------------------
    E----------------------------------------------------------------
    
                      pattern 2c: (alternate ending, matches lead 1d)
                      
                               -----------------------3--------------
                               -----------6--------------6-----------
                               -----3--5-----5--3-----------5--3-----
                               --5-----------------5--------------5--
                               --------------------------------------
                               --------------------------------------
    
    
    pattern 3a:                    3b: (ending)
    
    E--8--8--8--8--10--11--10--10--8--10--10-------------------------
    B-----------------------------------------11------8------8-------
    G---------------------------------------------10-----10----------
    D----------------------------------------------------------------
    A----------------------------------------------------------------
    E----------------------------------------------------------------
    
                                   3c: (alternate ending)
                                 -----------------8------------------
                                 --11------8--11---------------------
                                 ------10----------------------------
                                 ------------------------------------
                                 ------------------------------------
                                 ------------------------------------
    [url="http://astleigh.mymiddleearth.com/"]Astleigh's Songbook[/url] | [url="http://www.lotrointerface.com/downloads/info455-Lyrical.html"]Lyrical[/url]

  8. #8
    Join Date
    Apr 2008
    Location
    1 brookbank, Derndelf, Nimrodel
    Posts
    121

    Re: Tabs for lotro soundtrack?

    I want to say thanks for you taking the time to post these too.

    I really like the stringed instrument tunes, especially the ones posted here and the ones found in the Aughaire area like "Home from the hunt." Glad to see them being tabbed and posted. They sound great on my flamenco guitar.
    It's just a game. Relax and have a smoke of shire green leaf.
    Yes, I'm a real archer and bowhunter. Wild boar bacon, anyone?
    [charsig=http://lotrosigs.level3.turbine.com/0a20b0000000a2f6c/01007/signature.png]undefined[/charsig]

  9. #9
    Join Date
    Jul 2007
    Location
    South Dakota
    Posts
    2,884

    Re: Tabs for lotro soundtrack?

    Quote Originally Posted by kraventhearcher View Post
    I want to say thanks for you taking the time to post these too.

    I really like the stringed instrument tunes, especially the ones posted here and the ones found in the Aughaire area like "Home from the hunt." Glad to see them being tabbed and posted. They sound great on my flamenco guitar.
    You should do some recording and post them!

    I wish I had a nice guitar...I play percussion and bass, primarily, so it's never been a focus for my limited funds. Although the multi-decade old acoustic that used to belong to my grandfather has it's own special-sounding charm. Something about it's age makes it sound a lot better than a new guitar playing these particular songs.
    [B][COLOR=red]Turn[/COLOR] - Guardian
    [COLOR=red]Balandolen[/COLOR] - Lore-master
    [COLOR=red]Turnholm[/COLOR] - Minstrel

    [/B]

  10. #10
    Join Date
    Apr 2008
    Location
    1 brookbank, Derndelf, Nimrodel
    Posts
    121

    Re: Tabs for lotro soundtrack?

    I also have an heirloom guitar from my grandfather.
    My Flamenco guitar sounds neat, but he bought the old Yamaha in 1964 and played it for decades.
    When you do that, the wood relaxes and the sound mellows. All my friends call it "butter" when they hear me play it.

    Old played in guitar beats new fancy pants guitar any day o the week.
    It's just a game. Relax and have a smoke of shire green leaf.
    Yes, I'm a real archer and bowhunter. Wild boar bacon, anyone?
    [charsig=http://lotrosigs.level3.turbine.com/0a20b0000000a2f6c/01007/signature.png]undefined[/charsig]

  11. #11
    Join Date
    Apr 2008
    Location
    1 brookbank, Derndelf, Nimrodel
    Posts
    121

    Re: Tabs for lotro soundtrack?

    working on recording them and posting a link here.
    jsyk.
    It's just a game. Relax and have a smoke of shire green leaf.
    Yes, I'm a real archer and bowhunter. Wild boar bacon, anyone?
    [charsig=http://lotrosigs.level3.turbine.com/0a20b0000000a2f6c/01007/signature.png]undefined[/charsig]

  12. Re: Tabs for lotro soundtrack?

    Very cool. Can't wait to hear!
    [url="http://astleigh.mymiddleearth.com/"]Astleigh's Songbook[/url] | [url="http://www.lotrointerface.com/downloads/info455-Lyrical.html"]Lyrical[/url]

  13. #13
    Join Date
    Dec 1969
    Posts
    5

    Re: Tabs for lotro soundtrack?

    I know this thread is a few months old, but i didn't want to contribute to clogging up the forums by starting another thread...

    would anybody be able to translate the song that Glynn Harper plays by the fire in the Forsaken Inn? I can't find a song title in the lotro soundtrack, so I'm not really certain what it's called. I just know that I like it, and I'd like to learn to play it...

  14. Re: Tabs for lotro soundtrack?

    Quote Originally Posted by brokenshadows View Post
    would anybody be able to translate the song that Glynn Harper plays by the fire in the Forsaken Inn? I can't find a song title in the lotro soundtrack, so I'm not really certain what it's called. I just know that I like it, and I'd like to learn to play it...
    I don't think this song is in the soundtrack release, its one of the new ones that got added to the NPC minstrels with Mirkwood. It was tricky because Gynn's lute isn't in concert pitch (must be the forsaken ale).

    Code:
    Glynn Harper's song
    
    The chord progression is: Dm Am Dm Am C F
    
    To transpose this to the same key as Glynn Harper, capo the 2nd fret
    and tune your guitar down half a step.
    
       Dm (xx0231)                 Am (x02210)
    E----1-----3-----1-----0^1---------------------------------------
    B------3-----3-----3-------3-----1-----3-----1-----0^1-----------
    G--------2-----2-----2-------------2-----2-----2-----------------
    D--0---------------------------------2-----2-----2---------------
    A------------------------------0---------------------------------
    E----------------------------------------------------------------
    
       C (x32010)                  F (xx3211)
    E--------------------------------------1-----1-------------------
    B----1-----3-----1-----0^1---------1-----1-----------------------
    G------0-----0-----0-------0-----2---2-----2---------------------
    D--------2-----2-----2---------3---------------------------------
    A--3-------------------------------------------------------------
    E----------------------------------------------------------------
    [url="http://astleigh.mymiddleearth.com/"]Astleigh's Songbook[/url] | [url="http://www.lotrointerface.com/downloads/info455-Lyrical.html"]Lyrical[/url]

  15. #15
    Join Date
    Dec 1969
    Posts
    5

    Re: Tabs for lotro soundtrack?

    Much appreciated!

  16. #16
    Join Date
    Dec 2010
    Posts
    1

    Re: Tabs for lotro soundtrack?

    Hey guys, im sorry this is such a late post, make that really late post, but i have to know, does anybody have the tabs for Home from the hunt, or any songs heard within the Prancing Pony.

    Any help would be greatly appreciated

  17. Re: Tabs for lotro soundtrack?

    I had a listen to Home from the Hunt, but I dont think it was played on guitar. The low notes heard around 1:30 are way lower than anything you can play on a guitar (even with dropped tunings). My guess is its some kind of theorbo or lute. Sorry!

    But if you would like to know how to play stuff that sounds *like* Home from the Hunt, it is not that hard. This song sounds like it was improvised, and you can similarly improvise stuff if you know a little about modes.

    In this case, the tune is in D dorian mode. All you have to do is play a D drone note on the low string, and add some random noodling on the dorian scale using the upper strings. I came up with the following, which should give you an idea. Another thing you might want to investigate is "modal tunings". DADGAD seems to be the most common, but I am using DGDGAD which is similar.

    Code:
    D-----------------------------------------------------------
    A-----------------------------------------------------------
    G-----------------------------------------------------------
    D-----------------------------------------------------------
    G---10-----9^10^9-----5^7-7-----4^5-4-----0^2---4---0-----2-
    D-0----0-0--------0-0-------0-0-------0-0-----0---0---0-0---
    [url="http://astleigh.mymiddleearth.com/"]Astleigh's Songbook[/url] | [url="http://www.lotrointerface.com/downloads/info455-Lyrical.html"]Lyrical[/url]

  18. #18
    Join Date
    Dec 2007
    Posts
    17

    Re: Tabs for lotro soundtrack?

    Thanks for posting the tabs of Bree Land Jig. This song plays in Galtrev and its been haunting me since getting there. Time to dust off my acoustic and give it a go.

    Thanks again!
    [charsig=http://lotrosigs.level3.turbine.com/0620500000008d534/01003/signature.png]Curathelion[/charsig]

  19. #19
    Join Date
    Aug 2010
    Location
    Germany
    Posts
    1,099

    Re: Tabs for lotro soundtrack?

    Quote Originally Posted by Astleigh View Post
    I had a listen to Home from the Hunt, but I dont think it was played on guitar. The low notes heard around 1:30 are way lower than anything you can play on a guitar (even with dropped tunings). My guess is its some kind of theorbo or lute. Sorry!
    just want to add it is indeed played on a guitar. For details see this thread, with a quoted email replay from chance thomas himself even.

    entire thread:
    http://forums.lotro.com/showthread.p...t-quot-details

    relevant post:
    http://forums.lotro.com/showthread.p...37#post5717337

    I am glad chance thomas is working for turbine again (or has worked, he probably has finished all his composing stuff for RoR already)
    [charsig=http://lotrosigs.level3.turbine.com/0520a00000020d796/01008/signature.png]undefined[/charsig]

  20. #20
    Join Date
    Dec 2009
    Posts
    15

    Tabs coming

    Hello Folks!

    I have come late to this thread. I have been covering LOTRO songs for a while now. (I make my own dark ages music which is similar to a lot of the Inn and Cabin songs in LOTRO). My problem has been time to write the tabs out. A lot of the online programs take a LOT of time. I will post a few links to some of the covers I started to upload. I also am in another country right now and only have a cruddy cheap guitar and camera to record on so I have not uploaded full songs. But I will start posting tabs here this week. Stay tuned! Here are a few of the ones I have covered. Please remember that all credit for these songs goes to Turbine and CT but please give me some props for figuring these out by ear with no training in guitar what so ever. Thanks! There will be many many more with tabs coming shortly!

    Hills of The Shire Housing Theme
    http://www.youtube.com/watch?v=YLuEXtshTdw

    Clear Nights (or Skies, I am not sure)
    http://www.youtube.com/watch?v=T_HyNudK8pY

  21. #21
    Hey guys, anyone know the tabs for the first song here? https://www.youtube.com/watch?v=qcmgbumTpt0

    I also sent an email to chance for sheet music from lotro though doubt he'll ever see it.
    [center][img]http://i267.photobucket.com/albums/ii317/saiyaniam/abdlotro.png[/img][/center]

    [center]AshBrockDawn | Rockmor | Moriak | Thamor | Ranak
    Server: Eldar [/center]

  22. #22
    Join Date
    Jun 2011
    Location
    Germany
    Posts
    73
    Quote Originally Posted by rockmor View Post
    Hey guys, anyone know the tabs for the first song here? https://www.youtube.com/watch?v=qcmgbumTpt0I also sent an email to chance for sheet music from lotro though doubt he'll ever see it.
    It is not the sheet... but maybe it will help you.

    Code:
    X: 1
    T: Autumn Ale (2:49)
    Z: Transcribed by LotRO MIDI Player: http://lotro.acasylum.com/midi
    %  Original file: Autumn Ale.mid
    %  Arr. Turnholm of Firefoot
    %  Transpose: -12
    L: 1/4
    Q: 96
    K: C
    
    [D/2G/2] [D/2G/2] [D/4G/4] [D/4G/4] [D/2G/2] [D/2G/2] [D/4G/4]
    [D/4G/4] [D/2G/2] [D/4G/4] [D/4G/4] [D/4G/4] [D/4G/4] [D/2G/2]
    [D/2G/2] [D/2G/2] [D/2G/2] [D/2G/2] [D/4G/4] [D/4G/4] [D/2G/2]
    [D/2G/2] [D/4G/4] [D/4G/4] [D/2G/2] [D/4G/4] [D/4G/4] [D/4G/4]
    [D/4G/4] [D/2G/2] [D/2G/2] [D/2G/2] [^A3/2G,/2D/2G/2] [D/2G/2]
    [D/4G/4] [D/4G/4] [=A3/2D/2G/2] [D/2G/2] [D/4G/4] [D/4G/4]
    [F3/2G,/2D/2G/2] [D/2G/2] [D/4G/4] [D/4G/4] [G/2D/2A3/2] [D/2G/2]
    [D/4G/4] [D/4G/4] [G/2G,/2C/2] [C/2G/2] [C/4G/4] [C/4G/4] [C/2G/2]
    [C/2G/2] [C/4G/4] [C/4G/4] [G,/2C/2G/2] [C/4G/4] [C/4G/4] [C/4G/4]
    [C/4G/4] [C/2G/2] [C/2G/2] [C/2G/2] [^A3/2G,/2D/2G/2] [D/2G/2]
    [D/4G/4] [D/4G/4] [=A3/2D/2G/2] [D/2G/2] [D/4G/4] [D/4G/4]
    [F3/2G,/2D/2G/2] [D/2G/2] [D/4G/4] [D/4G/4] [G/2D/2A3/2] [D/2G/2]
    [D/4G/4] [D/4G/4] [G/2G,/2C/2] [C/2G/2] [C/4G/4] [C/4G/4] [C/2G/2]
    [C/2G/2] [C/4G/4] [C/4G/4] [G,/2C/2G/2] [C/4G/4] [C/4G/4] [C/4G/4]
    [C/4G/4] [C/2G/2] [C/2G/2] [C/2G/2] [AG,/2E/2G/2] [E/4G/4] [E/4G/4]
    [^AE/2G/2] [E/4G/4] [E/4G/4] [cE/2G/2] [E/4G/4] [E/4G/4]
    [cG,/2E/2G/2] [E/4G/4] [E/4G/4] [^A/2E/2G/2] [=A3/4E/2G/2] [E/4G/4]
    [^A/4E/4G/4] [=A/2E/2G/2] [G/2G,/2D/2] [D/2G/2] [D/4G/4] [D/4G/4]
    [D/2G/2] [D/2G/2] [D/4G/4] [D/4G/4] [G,/2D/2G/2] [D/2G/2] [D/4G/4]
    [D/4G/4] [D/2G/2] [D/2G/2] [D/4G/4D,/2] [D/4G/4] [G,3D/2G/2] [D/2G/2]
    [D/4G/4] [D/4G/4] [D/2G/2] [D/2G/2] [D/4G/4] [D/4G/4] [G,3D/2G/2]
    [D/4G/4] [D/4G/4] [D/4G/4] [D/4G/4] [D/2G/2] [D/2G/2] [D/2G/2]
    [^A3/2G,3D/2G/2] [D/2G/2] [D/4G/4] [D/4G/4] [=A3/2D/2G/2] [D/2G/2]
    [D/4G/4] [D/4G/4] [F3/2G,3D/2G/2] [D/2G/2] [D/4G/4] [D/4G/4]
    [G/2D/2A3/2] [D/2G/2] [D/4G/4] [D/4G/4] [G/2G,/2C/2C,3] [C/2G/2]
    [C/4G/4] [C/4G/4] [C/2G/2] [C/2G/2] [C/4G/4] [C/4G/4] [G,/2C/2G/2C,3]
    [C/4G/4] [C/4G/4] [C/4G/4] [C/4G/4] [C/2G/2] [C/2G/2] [C/2G/2]
    [^A3/2G,5/2D/2G/2] [D/2G/2] [D/4G/4] [D/4G/4] [=A3/2D/2G/2] [D/2G/2]
    [D/4G/4F,/2] [D/4G/4] [F3/2G,3D/2G/2] [D/2G/2] [D/4G/4] [D/4G/4]
    [G/2D/2A3/2] [D/2G/2] [D/4G/4] [D/4G/4] [G/2G,/2C/2C,3] [C/2G/2]
    [C/4G/4] [C/4G/4] [C/2G/2] [C/2G/2] [C/4G/4] [C/4G/4] [G,/2C/2G/2C,3]
    [C/4G/4] [C/4G/4] [C/4G/4] [C/4G/4] [C/2G/2] [C/2G/2] [C/2G/2]
    [a/8AG,/2E/2G/2] a/8 a/8 a/8 [a/8E/4G/4] a/8 [a/8E/4G/4] a/8
    [^a/8^AE/2G/2] ^a/8 ^a/8 ^a/8 [^a/8E/4G/4] ^a/8 [^a/8E/4G/4] ^a/8
    [c'/8cE/2G/2] c'/8 c'/8 c'/8 [c'/8E/4G/4] c'/8 [c'/8E/4G/4] c'/8
    [c'/8cG,/2E/2G/2] c'/8 c'/8 c'/8 [c'/8E/4G/4] c'/8 [c'/8E/4G/4] c'/8
    [^a/8^A/2E/2G/2] ^a/8 ^a/8 ^a/8 [=a/8=A3/4E/2G/2] a/8 a/8 a/8
    [a/8E/4G/4] a/8 [^a/8^A/4E/4G/4] ^a/8 [=a/8=A/2E/2G/2] a/8 a/8 a/8
    [g6G/2G,5/2D/2] [D/2G/2] [D/4G/4] [D/4G/4] [D/2G/2] [D/2G/2]
    [D/4G/4F,/2] [D/4G/4] [G,2D/2G/2] [D/2G/2] [D/4G/4] [D/4G/4] [D/2G/2]
    [D/2G/2] [D/4G/4D,/2] [D/4G/4] [G,3D/2G/2] [D/2G/2] [D/4G/4] [D/4G/4]
    [D/2G/2] [D/2G/2] [D/4G/4] [D/4G/4] [G,3D/2G/2] [D/4G/4] [D/4G/4]
    [D/4G/4] [D/4G/4] [D/2G/2] [D/2G/2] [D/2G/2] [f7/8F7/8G,/2D/2G/2]
    [D/2G/2z3/8] [f/8F/8] [f/2F/2D/4G/4] [D/4G/4] [^d/2^D/2=D/2G/2]
    [f/2F/2D/2G/2] [c/2C/2D/4G/4] [D/4G/4] [=d/2D/2G,/2G/2]
    [c/2C/2D/4G/4] [D/4G/4] [^A/2^A,/2D/4G/4] [D/4G/4] [c/2C/2D/2G/2]
    [d/2D/2G/2] [c/2C/2D/2G/2] [d7/8D/2G,/2G/2] [D3/8G/2] [d/8D/8]
    [d/2D/4G/4] [D/4G/4] [c7/8C7/8D/2G/2] [D/2G/2z3/8] [c/8C/8]
    [c/2C/2D/4G/4] [D/4G/4] [^A7/8^A,7/8G,/2D/2G/2] [D/4G/4] [D/4G/4z/8]
    [^A/8^A,/8] [^A/2^A,/2D/4G/4] [D/4G/4] [=A=A,D/2G/2] [D/2G/2]
    [F/2F,/2D/2G/2] [G/2G,3D/2] [D/2G/2] [D/4G/4] [D/4G/4] [D/2G/2]
    [D/2G/2] [D/4G/4] [D/4G/4] [G,3D/2G/2] [D/4G/4] [D/4G/4] [D/4G/4]
    [D/4G/4] [D/2G/2] [D/2G/2] [D/2G/2D,/2] [G,3D/2G/2] [D/2G/2] [D/4G/4]
    [D/4G/4] [D/2G/2] [D/2G/2] [D/4G/4] [D/4G/4] [G,3D/2G/2] [D/4G/4]
    [D/4G/4] [D/4G/4] [D/4G/4] [D/2G/2] [D/2G/2] [D/2G/2]
    [^A3/2G,5/2D/2G/2] [D/2G/2] [D/4G/4] [D/4G/4] [=A3/2D/2G/2] [D/2G/2]
    [D/4G/4F,/2] [D/4G/4] [F3/2G,5/2D/2G/2] [D/2G/2] [D/4G/4] [D/4G/4]
    [G/2D/2A3/2] [D/2G/2] [D/4G/4G,/2] [D/4G/4] [G/2G,/2C/2C,5/2]
    [C/2G/2] [C/4G/4] [C/4G/4] [C/2G/2] [C/2G/2] [C/4G/4C,/2] [C/4G/4]
    [G,/2C/2G/2C,5/2] [C/4G/4] [C/4G/4] [C/4G/4] [C/4G/4] [C/2G/2]
    [C/2G/2] [C/2G/2C,/2] [^A3/2G,5/2D/2G/2] [D/2G/2] [D/4G/4] [D/4G/4]
    [=A3/2D/2G/2] [D/2G/2] [D/4G/4F,/2] [D/4G/4] [F3/2G,5/2D/2G/2]
    [D/2G/2] [D/4G/4] [D/4G/4] [G/2D/2A3/2] [D/2G/2] [D/4G/4G,/2]
    [D/4G/4] [G/2G,/2C/2C,5/2] [C/2G/2] [C/4G/4] [C/4G/4] [C/2G/2]
    [C/2G/2] [C/4G/4C,/2] [C/4G/4] [G,/2C/2G/2C,5/2] [C/4G/4] [C/4G/4]
    [C/4G/4] [C/4G/4] [C/2G/2] [C/2G/2] [C/2G/2C,/2] [AG,/2E/2G/2]
    [E/4G/4] [E/4G/4] [^AE/2G/2] [E/4G/4] [E/4G/4] [cE/2G/2] [E/4G/4]
    [E/4G/4] [cG,/2E/2G/2] [E/4G/4] [E/4G/4] [^A/2E/2G/2] [=A3/4E/2G/2]
    [E/4G/4] [^A/4E/4G/4] [=A/2E/2G/2] [G/2G,5/2D/2] [D/2G/2] [D/4G/4]
    [D/4G/4] [D/2G/2] [D/2G/2] [D/4G/4F,/2] [D/4G/4] [G,2D/2G/2] [D/2G/2]
    [D/4G/4] [D/4G/4] [D/2G/2] [D/2G/2] [D/4G/4D,/2] [D/4G/4]
    [G,5/2D/2G/2] [D/2G/2] [D/4G/4] [D/4G/4] [D/2G/2] [D/2G/2]
    [D/4G/4F,/2] [D/4G/4] [G,3D/2G/2] [D/4G/4] [D/4G/4] [D/4G/4] [D/4G/4]
    [D/2G/2] [D/2G/2] [D/2G/2] [^A3/2G,5/2D/2G/2] [D/2G/2] [D/4G/4]
    [D/4G/4] [=A3/2D/2G/2] [D/2G/2] [D/4G/4F,/2] [D/4G/4]
    [F3/2G,5/2D/2G/2] [D/2G/2] [D/4G/4] [D/4G/4] [G/2D/2A3/2] [D/2G/2]
    [D/4G/4G,/2] [D/4G/4] [G/2G,/2C/2C,5/2] [C/2G/2] [C/4G/4] [C/4G/4]
    [C/2G/2] [C/2G/2] [C/4G/4C,/2] [C/4G/4] [G,/2C/2G/2C,5/2] [C/4G/4]
    [C/4G/4] [C/4G/4] [C/4G/4] [C/2G/2] [C/2G/2] [C/2G/2C,/2]
    [^A3/2G,5/2D/2G/2] [D/2G/2] [D/4G/4] [D/4G/4] [=A3/2D/2G/2] [D/2G/2]
    [D/4G/4F,/2] [D/4G/4] [F3/2G,5/2D/2G/2] [D/2G/2] [D/4G/4] [D/4G/4]
    [G/2D/2A3/2] [D/2G/2] [D/4G/4G,/2] [D/4G/4] [G/2G,/2C/2C,5/2]
    [C/2G/2] [C/4G/4] [C/4G/4] [C/2G/2] [C/2G/2] [C/4G/4C,/2] [C/4G/4]
    [G,/2C/2G/2C,5/2] [C/4G/4] [C/4G/4] [C/4G/4] [C/4G/4] [C/2G/2]
    [C/2G/2] [C/2G/2C,/2] [a/8AG,/2E/2G/2] a/8 a/8 a/8 [a/8E/4G/4] a/8
    [a/8E/4G/4] a/8 [^a/8^AE/2G/2] ^a/8 ^a/8 ^a/8 [^a/8E/4G/4] ^a/8
    [^a/8E/4G/4] ^a/8 [c'/8cE/2G/2] c'/8 c'/8 c'/8 [c'/8E/4G/4] c'/8
    [c'/8E/4G/4] c'/8 [c'/8cG,/2E/2G/2] c'/8 c'/8 c'/8 [c'/8E/4G/4] c'/8
    [c'/8E/4G/4] c'/8 [^a/8^A/2E/2G/2] ^a/8 ^a/8 ^a/8 [=a/8=A3/4E/2G/2]
    a/8 a/8 a/8 [a/8E/4G/4] a/8 [^a/8^A/4E/4G/4] ^a/8 [=a/8=A/2E/2G/2]
    a/8 a/8 a/8 [g6G/2G,5/2D/2] [D/2G/2] [D/4G/4] [D/4G/4] [D/2G/2]
    [D/2G/2] [D/4G/4F,/2] [D/4G/4] [G,2D/2G/2] [D/2G/2] [D/4G/4] [D/4G/4]
    [D/2G/2] [D/2G/2] [D/4G/4D,/2] [D/4G/4] [G,5/2D/2G/2] [D/2G/2]
    [D/4G/4] [D/4G/4] [D/2G/2] [D/2G/2] [D/4G/4F,/2] [D/4G/4] [G,3D/2G/2]
    [D/4G/4] [D/4G/4] [D/4G/4] [D/4G/4] [D/2G/2] [D/2G/2] [D/2G/2]
    [^A3/2G,/2D/2G/2] [D/2G/2] [D/4G/4] [D/4G/4] [=A3/2D/2G/2] [D/2G/2]
    [D/4G/4] [D/4G/4] [F3/2G,/2D/2G/2] [D/2G/2] [D/4G/4] [D/4G/4]
    [G/2D/2A3/2] [D/2G/2] [D/4G/4] [D/4G/4] [G/2G,/2C/2] [C/2G/2]
    [C/4G/4] [C/4G/4] [C/2G/2] [C/2G/2] [C/4G/4] [C/4G/4] [G,/2C/2G/2]
    [C/4G/4] [C/4G/4] [C/4G/4] [C/4G/4] [C/2G/2] [C/2G/2] [C/2G/2]
    [^A3/2G,/2D/2G/2] [D/2G/2] [D/4G/4] [D/4G/4] [=A3/2D/2G/2] [D/2G/2]
    [D/4G/4] [D/4G/4] [F3/2G,/2D/2G/2] [D/2G/2] [D/4G/4] [D/4G/4]
    [G/2D/2A3/2] [D/2G/2] [D/4G/4] [D/4G/4] [G/2G,/2C/2] [C/2G/2]
    [C/4G/4] [C/4G/4] [C/2G/2] [C/2G/2] [C/4G/4] [C/4G/4] [G,/2C/2G/2]
    [C/4G/4] [C/4G/4] [C/4G/4] [C/4G/4] [C/2G/2] [C/2G/2] [C/2G/2]
    [AG,/2E/2G/2] [E/4G/4] [E/4G/4] [^AE/2G/2] [E/4G/4] [E/4G/4]
    [cE/2G/2] [E/4G/4] [E/4G/4] [cG,/2E/2G/2] [E/4G/4] [E/4G/4]
    [^A/2E/2G/2] [=A3/4E/2G/2] [E/4G/4] [^A/4E/4G/4] [=A/2E/2G/2]
    [G/2G,/2D/2] [D/2G/2] [D/4G/4] [D/4G/4] [D/2G/2] [D/2G/2] [D/4G/4]
    [D/4G/4] [G,/2D/2G/2] [D/2G/2] [D/4G/4] [D/4G/4] [D/2G/2] [D/2G/2]
    [D/4G/4] [D/4G/4] [f7/8G,/2D/2G/2] [D/2G/2z3/8] f/8 [f/2D/4G/4]
    [D/4G/4] [^d/2D/2G/2] [f/2D/2G/2] [c/2D/4G/4] [D/4G/4]
    [=d/2G,/2D/2G/2] [c/2D/4G/4] [D/4G/4] [^A/2D/4G/4] [D/4G/4]
    [c/2D/2G/2] [d/2D/2G/2] [c/2D/2G/2] [d7/8G,/2D/2G/2] [D/2G/2z3/8] d/8
    [d/2D/4G/4] [D/4G/4] [c7/8D/2G/2] [D/2G/2z3/8] c/8 [c/2D/4G/4]
    [D/4G/4] [^A7/8G,/2D/2G/2] [D/4G/4] [D/4G/4z/8] ^A/8 [^A/2D/4G/4]
    [D/4G/4] [=AD/2G/2] [D/2G/2] [F/2D/2G/2] [G/2G,/2D/2] [D/2G/2]
    [D/4G/4] [D/4G/4] [D/2G/2] [D/2G/2] [D/4G/4] [D/4G/4] [G,/2D/2G/2]
    [D/4G/4] [D/4G/4] [D/4G/4] [D/4G/4] [D/2G/2] [D/2G/2] [D/2G/2D,/2]
    [G,3D/2G/2] [D/2G/2] [D/4G/4] [D/4G/4] [D/2G/2] [D/2G/2] [D/4G/4]
    [D/4G/4] [G,5/2D/2G/2] [D/4G/4] [D/4G/4] [D/4G/4] [D/4G/4] [D/2G/2]
    [D/2G/2] [D/2G/2D,/2] [D6G6G,6]
    [FONT=impact][SIZE=4][I]Palantorio Rochalor [SIZE=2][FONT=arial](bdl.bplaced.net)[/FONT][/SIZE][/I][/SIZE][/FONT]
    * Frag dich nicht, was deine Sippe für dich tun kann, frag dich was Du für die Sippe tun kannst.. *
    Anführer / Leader : Belegaer - Bewahrer des Lichts
    Leader : Landroval - Notenzauber
    [IMG]http://lux-hdro.de/generator.php/Palantorio/1/2/3/3/95/Bewahrer+des+Lichts/0/4/0/0/0/1/3/8/8/8/8/8/8.png[/IMG]

  23. #23
    Hello, fellow Lotro and guitar/acoustic guitar players! Sorry for necro an old thread, but it pretty much matches what I'm looking for, so no need to create another one. For years I admired the music in Lotro, and come to find the tabs and learn to play some of the songs, but one music in particular is very dear to me, and it took me a lot ot time to find it out in a place other then the game. The track is called Ruins and Hills, and is an amazing acoustic song that plays in the fields outside Bree, so relaxing and beautiful! After knowing the name of the song, I did some heavy research for an acoustic guitar tab for it, without any success, unfortunately. While I'm a average/good player, I'm very little skilled in learning and figuring songs by ear, and so I seek your help in the hopes someone knows or have the tab for this song, or at least can put me in the right direction to find the creator of it, so I can try to mail him in the hopes he would share the tab with me.

    Appreciate your attention guys, and sorry for my english, it's not my native language.

    All the best to you!

    Doug Hoffmann

    Link to the song on YT = https://www.youtube.com/watch?v=6f-JSuhcb04
    [charsig=http://lotrosigs.level3.turbine.com/0d216000000012d18/01002/signature.png]undefined[/charsig]

 

 

Posting Permissions

  • You may not post new threads
  • You may not post replies
  • You may not post attachments
  • You may not edit your posts
  •  

This form's session has expired. You need to reload the page.

Reload